Azul - Cifrada

Add

Azul



Intro.: Ab7(#4) Gm7 C#º Dm7(9) F7(9) Bb7M A7(b13) Dm7(9) Ab7(#4) (2x)


e|-13-10-------------------------------------------------------|
B|-------10-----------10----------------10----------10---------|
G|-----------12-10-12----10-------10-------12-10-12----12-10---|
D|--------------------------12-12----12------------------------|
A|-------------------------------------------------------------|
E|-------------------------------------------------------------|


e|-13-10-------------------------------------------------------|
B|-------10--------------10---------------10-------------------|
G|-----------12-10----10---12-10-10----10----12-10-------------|
D|-----------------12---------------12-------------12----------|
A|-------------------------------------------------------------|
E|-------------------------------------------------------------|


Gm7 C#º Dm7(9) F7(9) Bb7M A7(b13) Dm7(9)
Eu não sei se vem de Deus do céu ficar azul
Ab7(#4) Gm7 C#º Dm7(9) F7(9) Bb7M
Ou vi---rá dos olhos teus essa cor
Em7(b5) Ab7(#4) Gm7 C#º Dm7(9)
Que azuleja o di-----a se aca---so anoi--tecer
F7(9) Bb7M A7(b13) Dm7(9) Ab7(#4) Gm7
Do céu perder o azul entre o mar
C#º Dm7(9) F7(9) Bb7M Bb7M Em7(b5)
E o entar---decer... Alga mari--nha vá na
Ab7(#4) Gm7 C#º Dm7(9) F7(9)
Ma----------re|--si--a Buscar a------li
Bb7M A7(b13) Dm7(9) Ab7(#4) Gm7 C#º Dm7(9)
Um cheiro de azul es---sa cor não sai de mim


F7(9) Bb7M Bb7M A7(b13) Ab7(#4)
Bate e finca pé a sangue de rei até o sol nascer
Gm7 C#º Dm7(9) F7(9) Bb7M
Ama-relinho queimando, mansinho cedinho, cedinho
A7(b13) Dm7(9) Ab7(#4) Gm7 C#º
Cedinho corre e vá dizer pro meu benzinho
Dm7(9) F7(9) Bb7M A7(b13) Dm7(9)
Um dizer assim: O amor é a--zulzinho


Ab7(#4) Gm7 C#º Dm7(9) F7(9)
Até o sol nascer ama-relinho queimando, mansinho cedinho
Bb7M A7(b13) Dm7(9) Ab7(#4) Gm7 C#º
Cedinho, cedinho corre e vá dizer pro meu benzinho
Dm7(9) F7(9) Bb7M A7(b13) Dm7(9) Ab7(#4)
Um dizer assim: O amor é a--zulzinho


Ab7(#4) Gm7 C#º Dm7(9)


|||||| |||||| |||||| ||||||
|||||| |||||| |||||| ||||||
||||1| 1|234| |||1|| ||1|||
2|3||| |||||| |2|||| ||||||
|||4|| |||||| ||3|4| |2|34|
O ooo O ooo Oooo Oooo


F7(9) Bb7M A7(b13) Em7(b5)


7ª ||1||| 6ª 1|||2| 5ª 1|2||| 7ª |1|2||
|2|34| ||34|| |||34| ||3|4|
|||||| |||||| |||||| ||||||
|||||| |||||| |||||| ||||||
|||||| |||||| |||||| ||||||
Oooo O ooo O ooo Oooo

Comentários
  • Comentar
    »
      Foto do Álbum